ISO-10303-21;
HEADER;
FILE_DESCRIPTION( ( 'STEP Version 203' ), '1' );
FILE_NAME( ' ', '11/07/11 14:27:58', ( 'sasilves' ), ( '  ' ), 'PSStep 14.0', 'DesignModeler STEP Output', '  ' );
FILE_SCHEMA( ( 'AUTOMOTIVE_DESIGN { 1 0 10303 214 1 1 1 1 }' ) );
ENDSEC;
DATA;
#1 = PRODUCT_DEFINITION_CONTEXT( '', #9, 'design' );
#2 = APPLICATION_PROTOCOL_DEFINITION( 'international standard', 'automotive_design', 2001, #9 );
#3 = PRODUCT_CATEGORY_RELATIONSHIP( 'NONE', 'NONE', #10, #11 );
#4 = SHAPE_DEFINITION_REPRESENTATION( #12, #13 );
#5 =  ( GEOMETRIC_REPRESENTATION_CONTEXT( 3 )GLOBAL_UNCERTAINTY_ASSIGNED_CONTEXT( ( #16 ) )GLOBAL_UNIT_ASSIGNED_CONTEXT( ( #18, #19, #20 ) )REPRESENTATION_CONTEXT( 'NONE', 'WORKSPACE' ) );
#9 = APPLICATION_CONTEXT( 'core data for automotive mechanical design processes' );
#10 = PRODUCT_CATEGORY( 'part', 'NONE' );
#11 = PRODUCT_RELATED_PRODUCT_CATEGORY( 'detail', ' ', ( #22 ) );
#12 = PRODUCT_DEFINITION_SHAPE( 'NONE', 'NONE', #23 );
#13 = ADVANCED_BREP_SHAPE_REPRESENTATION( 'Fluid', ( #24, #25 ), #5 );
#16 = UNCERTAINTY_MEASURE_WITH_UNIT( LENGTH_MEASURE( 1.00000000000000E-006 ), #18, '', '' );
#18 =  ( CONVERSION_BASED_UNIT( 'METRE', #28 )LENGTH_UNIT(  )NAMED_UNIT( #31 ) );
#19 =  ( NAMED_UNIT( #33 )PLANE_ANGLE_UNIT(  )SI_UNIT( $, .RADIAN. ) );
#20 =  ( NAMED_UNIT( #33 )SI_UNIT( $, .STERADIAN. )SOLID_ANGLE_UNIT(  ) );
#22 = PRODUCT( 'Fluid', 'Fluid', 'PART-Fluid-DESC', ( #39 ) );
#23 = PRODUCT_DEFINITION( 'NONE', 'NONE', #40, #1 );
#24 = MANIFOLD_SOLID_BREP( 'Fluid', #41 );
#25 = AXIS2_PLACEMENT_3D( '', #42, #43, #44 );
#28 = LENGTH_MEASURE_WITH_UNIT( LENGTH_MEASURE( 1.00000000000000 ), #45 );
#31 = DIMENSIONAL_EXPONENTS( 1.00000000000000, 0.000000000000000, 0.000000000000000, 0.000000000000000, 0.000000000000000, 0.000000000000000, 0.000000000000000 );
#33 = DIMENSIONAL_EXPONENTS( 0.000000000000000, 0.000000000000000, 0.000000000000000, 0.000000000000000, 0.000000000000000, 0.000000000000000, 0.000000000000000 );
#39 = PRODUCT_CONTEXT( '', #9, 'mechanical' );
#40 = PRODUCT_DEFINITION_FORMATION_WITH_SPECIFIED_SOURCE( ' ', 'NONE', #22, .NOT_KNOWN. );
#41 = CLOSED_SHELL( '', ( #46, #47, #48, #49, #50 ) );
#42 = CARTESIAN_POINT( '', ( 0.000000000000000, 0.000000000000000, 0.000000000000000 ) );
#43 = DIRECTION( '', ( 0.000000000000000, 0.000000000000000, 1.00000000000000 ) );
#44 = DIRECTION( '', ( 1.00000000000000, 0.000000000000000, 0.000000000000000 ) );
#45 =  ( LENGTH_UNIT(  )NAMED_UNIT( #31 )SI_UNIT( $, .METRE. ) );
#46 = ADVANCED_FACE( '', ( #52, #53, #54 ), #55, .T. );
#47 = ADVANCED_FACE( '', ( #56 ), #57, .T. );
#48 = ADVANCED_FACE( '', ( #58, #59 ), #60, .T. );
#49 = ADVANCED_FACE( '', ( #61 ), #62, .F. );
#50 = ADVANCED_FACE( '', ( #63 ), #64, .T. );
#52 = FACE_OUTER_BOUND( '', #65, .T. );
#53 = FACE_OUTER_BOUND( '', #66, .T. );
#54 = FACE_BOUND( '', #67, .T. );
#55 = CYLINDRICAL_SURFACE( '', #68, 0.0762000000000000 );
#56 = FACE_OUTER_BOUND( '', #69, .T. );
#57 = PLANE( '', #70 );
#58 = FACE_OUTER_BOUND( '', #71, .T. );
#59 = FACE_OUTER_BOUND( '', #72, .T. );
#60 = CYLINDRICAL_SURFACE( '', #73, 0.0508000000000000 );
#61 = FACE_OUTER_BOUND( '', #74, .T. );
#62 = PLANE( '', #75 );
#63 = FACE_OUTER_BOUND( '', #76, .T. );
#64 = PLANE( '', #77 );
#65 = EDGE_LOOP( '', ( #78 ) );
#66 = EDGE_LOOP( '', ( #79 ) );
#67 = EDGE_LOOP( '', ( #80 ) );
#68 = AXIS2_PLACEMENT_3D( '', #81, #82, #83 );
#69 = EDGE_LOOP( '', ( #84 ) );
#70 = AXIS2_PLACEMENT_3D( '', #85, #86, #87 );
#71 = EDGE_LOOP( '', ( #88 ) );
#72 = EDGE_LOOP( '', ( #89 ) );
#73 = AXIS2_PLACEMENT_3D( '', #90, #91, #92 );
#74 = EDGE_LOOP( '', ( #93 ) );
#75 = AXIS2_PLACEMENT_3D( '', #94, #95, #96 );
#76 = EDGE_LOOP( '', ( #97 ) );
#77 = AXIS2_PLACEMENT_3D( '', #98, #99, #100 );
#78 = ORIENTED_EDGE( '', *, *, #101, .T. );
#79 = ORIENTED_EDGE( '', *, *, #102, .F. );
#80 = ORIENTED_EDGE( '', *, *, #103, .F. );
#81 = CARTESIAN_POINT( '', ( 0.000000000000000, 0.355600000000000, 0.000000000000000 ) );
#82 = DIRECTION( '', ( -0.000000000000000, 1.00000000000000, 0.000000000000000 ) );
#83 = DIRECTION( '', ( 0.000000000000000, 0.000000000000000, -1.00000000000000 ) );
#84 = ORIENTED_EDGE( '', *, *, #104, .T. );
#85 = CARTESIAN_POINT( '', ( 0.000000000000000, 0.000000000000000, 0.374650000000000 ) );
#86 = DIRECTION( '', ( 0.000000000000000, 0.000000000000000, 1.00000000000000 ) );
#87 = DIRECTION( '', ( 1.00000000000000, 0.000000000000000, -0.000000000000000 ) );
#88 = ORIENTED_EDGE( '', *, *, #104, .F. );
#89 = ORIENTED_EDGE( '', *, *, #103, .T. );
#90 = CARTESIAN_POINT( '', ( 0.000000000000000, 0.000000000000000, 0.374650000000000 ) );
#91 = DIRECTION( '', ( 0.000000000000000, -0.000000000000000, 1.00000000000000 ) );
#92 = DIRECTION( '', ( -1.00000000000000, 0.000000000000000, 0.000000000000000 ) );
#93 = ORIENTED_EDGE( '', *, *, #101, .F. );
#94 = CARTESIAN_POINT( '', ( 0.000000000000000, -0.355600000000000, 0.000000000000000 ) );
#95 = DIRECTION( '', ( 0.000000000000000, 1.00000000000000, 0.000000000000000 ) );
#96 = DIRECTION( '', ( 0.000000000000000, 0.000000000000000, 1.00000000000000 ) );
#97 = ORIENTED_EDGE( '', *, *, #102, .T. );
#98 = CARTESIAN_POINT( '', ( 0.000000000000000, 0.355600000000000, 0.000000000000000 ) );
#99 = DIRECTION( '', ( 0.000000000000000, 1.00000000000000, 0.000000000000000 ) );
#100 = DIRECTION( '', ( 0.000000000000000, 0.000000000000000, 1.00000000000000 ) );
#101 = EDGE_CURVE( '', #105, #105, #106, .T. );
#102 = EDGE_CURVE( '', #107, #107, #108, .T. );
#103 = EDGE_CURVE( '', #109, #109, #110, .T. );
#104 = EDGE_CURVE( '', #111, #111, #112, .T. );
#105 = VERTEX_POINT( '', #113 );
#106 = CIRCLE( '', #114, 0.0762000000000000 );
#107 = VERTEX_POINT( '', #115 );
#108 = CIRCLE( '', #116, 0.0762000000000000 );
#109 = VERTEX_POINT( '', #117 );
#110 = B_SPLINE_CURVE_WITH_KNOTS( '', 3, ( #118, #119, #120, #121, #122, #123, #124, #125, #126, #127, #128, #129, #130, #131, #132, #133, #134, #135, #136, #137, #138, #139, #140, #141, #142, #143, #144, #145, #146, #147, #148, #149, #150, #151, #152, #153, #154, #155, #156, #157, #158, #159, #160, #161, #162, #163, #164, #165, #166, #167, #168, #169, #170, #171, #172, #173, #174, #175, #176, #177, #178, #179, #180, #181, #182, #183, #184, #185, #186, #187, #188, #189, #190, #191, #192, #193, #194, #195, #196, #197, #198, #199, #200, #201, #202, #203, #204, #205, #206, #207, #208, #209, #210, #211, #212, #213, #214, #215, #216, #217, #218, #219, #220, #221, #222, #223, #224, #225, #226, #227, #228, #229, #230, #231, #232, #233, #234, #235, #236, #237, #238, #239, #240, #241, #242, #243, #244, #245, #246, #247, #248, #249, #250, #251, #252, #253, #254, #255, #256, #257, #258, #259, #260, #261, #262, #263, #264, #265, #266, #267 ), .UNSPECIFIED., .T., .F., ( 2, 2, 2, 2, 2, 2, 2, 2, 2, 2, 2, 2, 2, 2, 2, 2, 2, 2, 2, 2, 2, 2, 2, 2, 2, 2, 2, 2, 2, 2, 2, 2, 2, 2, 2, 2, 2, 2, 2, 2, 2, 2, 2, 2, 2, 2, 2, 2, 2, 2, 2, 2, 2, 2, 2, 2, 2, 2, 2, 2, 2, 2, 2, 2, 2, 2, 2, 2, 2, 2, 2, 2, 2, 2, 2, 2, 2 ), ( -0.00127992747690054, 0.000000000000000, 0.0102394198152047, 0.0127992747690058, 0.0153591297228070, 0.0204788396304093, 0.0255985495380117, 0.0281584044918128, 0.0307182594456140, 0.0409576792608187, 0.0460773891684210, 0.0486372441222222, 0.0511970990760234, 0.0614365188912280, 0.0639963738450292, 0.0665562287988303, 0.0716759387064326, 0.0819153585216372, 0.0844752134754383, 0.0870350684292395, 0.0921547783368418, 0.0972744882444441, 0.0998343431982453, 0.102394198152046, 0.107513908059649, 0.110073763013450, 0.112633617967251, 0.122873037782456, 0.127992747690058, 0.130552602643859, 0.133112457597660, 0.143351877412865, 0.145911732366666, 0.148471587320467, 0.153591297228069, 0.158711007135672, 0.161270862089473, 0.163830717043274, 0.174070136858479, 0.176629991812280, 0.179189846766081, 0.184309556673683, 0.186869411627484, 0.189429266581285, 0.194548976488888, 0.199668686396490, 0.202228541350291, 0.204788396304092, 0.215027816119297, 0.220147526026899, 0.222707380980700, 0.225267235934501, 0.235506655749706, 0.238066510703507, 0.240626365657308, 0.245746075564910, 0.250865785472513, 0.253425640426314, 0.255985495380115, 0.266224915195319, 0.268784770149120, 0.271344625102922, 0.276464335010524, 0.281584044918126, 0.286703754825728, 0.296943174640933, 0.299503029594734, 0.302062884548535, 0.307182594456137, 0.312302304363740, 0.314862159317541, 0.317422014271342, 0.322541724178944, 0.325101579132745, 0.326381506609646, 0.327661434086546, 0.337900853901751 ), .UNSPECIFIED. );
#111 = VERTEX_POINT( '', #268 );
#112 = CIRCLE( '', #269, 0.0508000000000000 );
#113 = CARTESIAN_POINT( '', ( 0.000000000000000, -0.355600000000000, 0.0762000000000000 ) );
#114 = AXIS2_PLACEMENT_3D( '', #270, #271, #272 );
#115 = CARTESIAN_POINT( '', ( 0.000000000000000, 0.355600000000000, 0.0762000000000000 ) );
#116 = AXIS2_PLACEMENT_3D( '', #273, #274, #275 );
#117 = CARTESIAN_POINT( '', ( -0.0508000000000000, 0.000000000000000, 0.0567961266284947 ) );
#118 = CARTESIAN_POINT( '', ( -0.0508000000000000, 0.000434512676430783, 0.0567961266284947 ) );
#119 = CARTESIAN_POINT( '', ( -0.0508000000000000, -0.00347610141144638, 0.0567961266284947 ) );
#120 = CARTESIAN_POINT( '', ( -0.0504474835231181, -0.00686032831248819, 0.0571164208241463 ) );
#121 = CARTESIAN_POINT( '', ( -0.0496040263412678, -0.0109905124713527, 0.0578440161411128 ) );
#122 = CARTESIAN_POINT( '', ( -0.0494149567528121, -0.0118115169381164, 0.0580058383634512 ) );
#123 = CARTESIAN_POINT( '', ( -0.0489960849132508, -0.0134437177311644, 0.0583600796632650 ) );
#124 = CARTESIAN_POINT( '', ( -0.0487655667798843, -0.0142571586031479, 0.0585530870924045 ) );
#125 = CARTESIAN_POINT( '', ( -0.0480177039499518, -0.0166663855280463, 0.0591705852010187 ) );
#126 = CARTESIAN_POINT( '', ( -0.0474474197960011, -0.0182230358779971, 0.0596308315892215 ) );
#127 = CARTESIAN_POINT( '', ( -0.0461714377511817, -0.0212493533524548, 0.0606241870651377 ) );
#128 = CARTESIAN_POINT( '', ( -0.0454656961818690, -0.0227189845950084, 0.0611573424030620 ) );
#129 = CARTESIAN_POINT( '', ( -0.0443067187893341, -0.0248639320644469, 0.0619966304318204 ) );
#130 = CARTESIAN_POINT( '', ( -0.0439036204573716, -0.0255689679229018, 0.0622830131594660 ) );
#131 = CARTESIAN_POINT( '', ( -0.0430635639049067, -0.0269597751050586, 0.0628667724739800 ) );
#132 = CARTESIAN_POINT( '', ( -0.0426258047508224, -0.0276466249831574, 0.0631646597887577 ) );
#133 = CARTESIAN_POINT( '', ( -0.0403698373803732, -0.0310064168796624, 0.0646638373438971 ) );
#134 = CARTESIAN_POINT( '', ( -0.0383423787893962, -0.0334782742361891, 0.0659004983912279 ) );
#135 = CARTESIAN_POINT( '', ( -0.0349550416585620, -0.0368965889604168, 0.0677216987937296 ) );
#136 = CARTESIAN_POINT( '', ( -0.0337677325489418, -0.0379871893405038, 0.0683234221860207 ) );
#137 = CARTESIAN_POINT( '', ( -0.0318930393230812, -0.0395491544992865, 0.0692080305160675 ) );
#138 = CARTESIAN_POINT( '', ( -0.0312551464437992, -0.0400551458012710, 0.0694986061884079 ) );
#139 = CARTESIAN_POINT( '', ( -0.0299594605381213, -0.0410332744080845, 0.0700669049239332 ) );
#140 = CARTESIAN_POINT( '', ( -0.0293007088975025, -0.0415062152829850, 0.0703450838042021 ) );
#141 = CARTESIAN_POINT( '', ( -0.0259517798920884, -0.0437911441349903, 0.0717028788647629 ) );
#142 = CARTESIAN_POINT( '', ( -0.0230979281029841, -0.0453668154238081, 0.0726837215808340 ) );
#143 = CARTESIAN_POINT( '', ( -0.0192847791867202, -0.0470045336190162, 0.0737235521784770 ) );
#144 = CARTESIAN_POINT( '', ( -0.0185097365478356, -0.0473152910009896, 0.0739221632622458 ) );
#145 = CARTESIAN_POINT( '', ( -0.0169335942778799, -0.0479019884181310, 0.0742990575530575 ) );
#146 = CARTESIAN_POINT( '', ( -0.0161295157376437, -0.0481788358749255, 0.0744779312113721 ) );
#147 = CARTESIAN_POINT( '', ( -0.0136999077696272, -0.0489473037447350, 0.0749765736008973 ) );
#148 = CARTESIAN_POINT( '', ( -0.0120623941637280, -0.0493760937678263, 0.0752577616180091 ) );
#149 = CARTESIAN_POINT( '', ( -0.00709654986025169, -0.0504154632528772, 0.0759423934764888 ) );
#150 = CARTESIAN_POINT( '', ( -0.00371542500329356, -0.0507817779117584, 0.0761878520267185 ) );
#151 = CARTESIAN_POINT( '', ( 0.000606221503063431, -0.0508037358854284, 0.0762024905708582 ) );
#152 = CARTESIAN_POINT( '', ( 0.00147754048747868, -0.0507858627001678, 0.0761905700738077 ) );
#153 = CARTESIAN_POINT( '', ( 0.00320425985030122, -0.0507062096286459, 0.0761374993868047 ) );
#154 = CARTESIAN_POINT( '', ( 0.00406247725038159, -0.0506445567183592, 0.0760964341251898 ) );
#155 = CARTESIAN_POINT( '', ( 0.00662210465886529, -0.0503957053360989, 0.0759309670806579 ) );
#156 = CARTESIAN_POINT( '', ( 0.00830852263089554, -0.0501447804679460, 0.0757643452061822 ) );
#157 = CARTESIAN_POINT( '', ( 0.0116426453014089, -0.0494770589957830, 0.0753240755881891 ) );
#158 = CARTESIAN_POINT( '', ( 0.0132903475076669, -0.0490602578121669, 0.0750504116842548 ) );
#159 = CARTESIAN_POINT( '', ( 0.0157330577542690, -0.0483097966469384, 0.0745627272932898 ) );
#160 = CARTESIAN_POINT( '', ( 0.0165390682465942, -0.0480396706165244, 0.0743879122280416 ) );
#161 = CARTESIAN_POINT( '', ( 0.0181240016624886, -0.0474644213611392, 0.0740177196882641 ) );
#162 = CARTESIAN_POINT( '', ( 0.0189047066840260, -0.0471587584896261, 0.0738219907939633 ) );
#163 = CARTESIAN_POINT( '', ( 0.0212129106666138, -0.0461891564051351, 0.0732051190793546 ) );
#164 = CARTESIAN_POINT( '', ( 0.0227065835118272, -0.0454727604470006, 0.0727543257148358 ) );
#165 = CARTESIAN_POINT( '', ( 0.0248831719745594, -0.0442961394688857, 0.0720267517227766 ) );
#166 = CARTESIAN_POINT( '', ( 0.0255980257997015, -0.0438868878870639, 0.0717756526853130 ) );
#167 = CARTESIAN_POINT( '', ( 0.0270067626616141, -0.0430343191394164, 0.0712575470654450 ) );
#168 = CARTESIAN_POINT( '', ( 0.0277019590888094, -0.0425901051434865, 0.0709900063981452 ) );
#169 = CARTESIAN_POINT( '', ( 0.0311103493651665, -0.0402938662607370, 0.0696219713498949 ) );
#170 = CARTESIAN_POINT( '', ( 0.0335969703811469, -0.0382388528002542, 0.0684422000640112 ) );
#171 = CARTESIAN_POINT( '', ( 0.0370099690503240, -0.0348350938201960, 0.0666210551026663 ) );
#172 = CARTESIAN_POINT( '', ( 0.0380942915741100, -0.0336464167764853, 0.0660053814631957 ) );
#173 = CARTESIAN_POINT( '', ( 0.0396418023805683, -0.0317776903995167, 0.0650794042856785 ) );
#174 = CARTESIAN_POINT( '', ( 0.0401434296496694, -0.0311415378752733, 0.0647709233748894 ) );
#175 = CARTESIAN_POINT( '', ( 0.0411116694517686, -0.0298516492034118, 0.0641607208014550 ) );
#176 = CARTESIAN_POINT( '', ( 0.0415793712449980, -0.0291966178366409, 0.0638583514118885 ) );
#177 = CARTESIAN_POINT( '', ( 0.0438374956786384, -0.0258700535808671, 0.0623650904224724 ) );
#178 = CARTESIAN_POINT( '', ( 0.0453900710226868, -0.0230468884039677, 0.0612279659002977 ) );
#179 = CARTESIAN_POINT( '', ( 0.0470081021667102, -0.0192756823865844, 0.0599737107232613 ) );
#180 = CARTESIAN_POINT( '', ( 0.0473153604910454, -0.0185091572684198, 0.0597313565740884 ) );
#181 = CARTESIAN_POINT( '', ( 0.0478961123172983, -0.0169497689091454, 0.0592666915009369 ) );
#182 = CARTESIAN_POINT( '', ( 0.0481704010513950, -0.0161542413118782, 0.0590437193070654 ) );
#183 = CARTESIAN_POINT( '', ( 0.0489327736406583, -0.0137496131978537, 0.0584162389416431 ) );
#184 = CARTESIAN_POINT( '', ( 0.0493614577762130, -0.0121220035118692, 0.0580525421076264 ) );
#185 = CARTESIAN_POINT( '', ( 0.0500580082485664, -0.00881432317997750, 0.0574529979125290 ) );
#186 = CARTESIAN_POINT( '', ( 0.0503258932539812, -0.00713425292214150, 0.0572171701039177 ) );
#187 = CARTESIAN_POINT( '', ( 0.0506011995334674, -0.00457131052503146, 0.0569734466870502 ) );
#188 = CARTESIAN_POINT( '', ( 0.0506719035802189, -0.00370851025478788, 0.0569104773019867 ) );
#189 = CARTESIAN_POINT( '', ( 0.0507690837123127, -0.00197357537607400, 0.0568238011593305 ) );
#190 = CARTESIAN_POINT( '', ( 0.0507951984859136, -0.00110909801825017, 0.0568004211472356 ) );
#191 = CARTESIAN_POINT( '', ( 0.0508161903121079, 0.00319865664971189, 0.0567816458883554 ) );
#192 = CARTESIAN_POINT( '', ( 0.0504857919719877, 0.00659817545990837, 0.0570824845456059 ) );
#193 = CARTESIAN_POINT( '', ( 0.0496476021074952, 0.0107929397931354, 0.0578066145180157 ) );
#194 = CARTESIAN_POINT( '', ( 0.0494587423485091, 0.0116271194818770, 0.0579684979844023 ) );
#195 = CARTESIAN_POINT( '', ( 0.0490437304074531, 0.0132691224224932, 0.0583200348163898 ) );
#196 = CARTESIAN_POINT( '', ( 0.0488170832739865, 0.0140795318407356, 0.0585101159056568 ) );
#197 = CARTESIAN_POINT( '', ( 0.0480814388339996, 0.0164808550927075, 0.0591186972991055 ) );
#198 = CARTESIAN_POINT( '', ( 0.0475169321129506, 0.0180419573095166, 0.0595754405505520 ) );
#199 = CARTESIAN_POINT( '', ( 0.0465621190237883, 0.0203295803513221, 0.0603205774223800 ) );
#200 = CARTESIAN_POINT( '', ( 0.0462257892355911, 0.0210830921407818, 0.0605789849423227 ) );
#201 = CARTESIAN_POINT( '', ( 0.0455169475120729, 0.0225727236693578, 0.0611133741195709 ) );
#202 = CARTESIAN_POINT( '', ( 0.0451447196164425, 0.0233080061048352, 0.0613891094510139 ) );
#203 = CARTESIAN_POINT( '', ( 0.0439842002773191, 0.0254696988063398, 0.0622313747213399 ) );
#204 = CARTESIAN_POINT( '', ( 0.0431491647600592, 0.0268587382997252, 0.0628151857761631 ) );
#205 = CARTESIAN_POINT( '', ( 0.0413581591870386, 0.0295422563661518, 0.0640085982680779 ) );
#206 = CARTESIAN_POINT( '', ( 0.0404021748674309, 0.0308367018601542, 0.0646182518696958 ) );
#207 = CARTESIAN_POINT( '', ( 0.0388751022329055, 0.0327110975861216, 0.0655402164976560 ) );
#208 = CARTESIAN_POINT( '', ( 0.0383505250052201, 0.0333246507588607, 0.0658488031425591 ) );
#209 = CARTESIAN_POINT( '', ( 0.0372694099404103, 0.0345294975212454, 0.0664666738010647 ) );
#210 = CARTESIAN_POINT( '', ( 0.0367129189671499, 0.0351205665979949, 0.0667758740401474 ) );
#211 = CARTESIAN_POINT( '', ( 0.0338746900594656, 0.0379945686831499, 0.0683051809162491 ) );
#212 = CARTESIAN_POINT( '', ( 0.0314082420873512, 0.0400587748953844, 0.0694861243821743 ) );
#213 = CARTESIAN_POINT( '', ( 0.0273914822951715, 0.0428133446130700, 0.0711212801195357 ) );
#214 = CARTESIAN_POINT( '', ( 0.0259993228999877, 0.0436740069988074, 0.0716437135938019 ) );
#215 = CARTESIAN_POINT( '', ( 0.0238240942357386, 0.0448746972523946, 0.0723839702975651 ) );
#216 = CARTESIAN_POINT( '', ( 0.0230822507022056, 0.0452608987860415, 0.0726241477555405 ) );
#217 = CARTESIAN_POINT( '', ( 0.0215800754220250, 0.0459960824546991, 0.0730845912588813 ) );
#218 = CARTESIAN_POINT( '', ( 0.0208205655055545, 0.0463448246304707, 0.0733046914300760 ) );
#219 = CARTESIAN_POINT( '', ( 0.0169804918964979, 0.0479946078529199, 0.0743521528473039 ) );
#220 = CARTESIAN_POINT( '', ( 0.0137736850707447, 0.0490172288033152, 0.0750213882928090 ) );
#221 = CARTESIAN_POINT( '', ( 0.00957761053097003, 0.0498963382575925, 0.0756004435858685 ) );
#222 = CARTESIAN_POINT( '', ( 0.00872585965364018, 0.0500524144450192, 0.0757035940040712 ) );
#223 = CARTESIAN_POINT( '', ( 0.00702065869865063, 0.0503199281588125, 0.0758807295910189 ) );
#224 = CARTESIAN_POINT( '', ( 0.00616741660549210, 0.0504315391565078, 0.0759548263062333 ) );
#225 = CARTESIAN_POINT( '', ( 0.00360578861812586, 0.0507009562588488, 0.0761338883521950 ) );
#226 = CARTESIAN_POINT( '', ( 0.00189550500116390, 0.0507935113289265, 0.0761956742344335 ) );
#227 = CARTESIAN_POINT( '', ( -0.00153010115486806, 0.0508058315824777, 0.0762038877072897 ) );
#228 = CARTESIAN_POINT( '', ( -0.00324542352268789, 0.0507256033113100, 0.0761503182022172 ) );
#229 = CARTESIAN_POINT( '', ( -0.00582226554186886, 0.0504726274850484, 0.0759821173566195 ) );
#230 = CARTESIAN_POINT( '', ( -0.00668485892472730, 0.0503656502487235, 0.0759110631333980 ) );
#231 = CARTESIAN_POINT( '', ( -0.00839322911015427, 0.0501092782718401, 0.0757412077405074 ) );
#232 = CARTESIAN_POINT( '', ( -0.00923910681935695, 0.0499600807672494, 0.0756425370479059 ) );
#233 = CARTESIAN_POINT( '', ( -0.0134284095896479, 0.0491122190226192, 0.0750836194499535 ) );
#234 = CARTESIAN_POINT( '', ( -0.0166526776449417, 0.0481112834044805, 0.0744276248983932 ) );
#235 = CARTESIAN_POINT( '', ( -0.0205352482997453, 0.0464720779742104, 0.0733852166043370 ) );
#236 = CARTESIAN_POINT( '', ( -0.0213022552250003, 0.0461253781374899, 0.0731660502004448 ) );
#237 = CARTESIAN_POINT( '', ( -0.0228059805901409, 0.0454007030267110, 0.0727113762002012 ) );
#238 = CARTESIAN_POINT( '', ( -0.0235445347632741, 0.0450219663951218, 0.0724753829157604 ) );
#239 = CARTESIAN_POINT( '', ( -0.0257219082758592, 0.0438378117138423, 0.0717437691975319 ) );
#240 = CARTESIAN_POINT( '', ( -0.0271225398056377, 0.0429846003549918, 0.0712245361927335 ) );
#241 = CARTESIAN_POINT( '', ( -0.0298278946587404, 0.0411534291817080, 0.0701346092995853 ) );
#242 = CARTESIAN_POINT( '', ( -0.0311326046823696, 0.0401754705009163, 0.0695638776262079 ) );
#243 = CARTESIAN_POINT( '', ( -0.0336489721421731, 0.0380927050503630, 0.0683821527774462 ) );
#244 = CARTESIAN_POINT( '', ( -0.0348455672708961, 0.0370002420787949, 0.0677782291370038 ) );
#245 = CARTESIAN_POINT( '', ( -0.0382546787919050, 0.0335795390052939, 0.0659520065202201 ) );
#246 = CARTESIAN_POINT( '', ( -0.0402928186353791, 0.0311068157112098, 0.0647121475946033 ) );
#247 = CARTESIAN_POINT( '', ( -0.0425594348565577, 0.0277487131371905, 0.0632094165032671 ) );
#248 = CARTESIAN_POINT( '', ( -0.0429992084893602, 0.0270624276415324, 0.0629108423508820 ) );
#249 = CARTESIAN_POINT( '', ( -0.0438468665108865, 0.0256663051049647, 0.0623230159185633 ) );
#250 = CARTESIAN_POINT( '', ( -0.0442532657403380, 0.0249590395145149, 0.0620348218238954 ) );
#251 = CARTESIAN_POINT( '', ( -0.0454208866319165, 0.0228088532429614, 0.0611907317099601 ) );
#252 = CARTESIAN_POINT( '', ( -0.0461307103729135, 0.0213376504405659, 0.0606552291783162 ) );
#253 = CARTESIAN_POINT( '', ( -0.0474127177405682, 0.0183131636340263, 0.0596584735191649 ) );
#254 = CARTESIAN_POINT( '', ( -0.0479849342857077, 0.0167599059304776, 0.0591971819872378 ) );
#255 = CARTESIAN_POINT( '', ( -0.0487351161625871, 0.0143607292265984, 0.0585784390456728 ) );
#256 = CARTESIAN_POINT( '', ( -0.0489671023801613, 0.0135494236983415, 0.0583844221915671 ) );
#257 = CARTESIAN_POINT( '', ( -0.0493934027889905, 0.0119019224913842, 0.0580242159023014 ) );
#258 = CARTESIAN_POINT( '', ( -0.0495865298718718, 0.0110698792807053, 0.0578590308204307 ) );
#259 = CARTESIAN_POINT( '', ( -0.0501016084981571, 0.00856583410947696, 0.0574149318100416 ) );
#260 = CARTESIAN_POINT( '', ( -0.0503612981503708, 0.00687887228295867, 0.0571859603920713 ) );
#261 = CARTESIAN_POINT( '', ( -0.0506231875407178, 0.00432061246078242, 0.0569538979136269 ) );
#262 = CARTESIAN_POINT( '', ( -0.0506891647135573, 0.00346321874496375, 0.0568950972429475 ) );
#263 = CARTESIAN_POINT( '', ( -0.0507554689678419, 0.00216995292871502, 0.0568359327121944 ) );
#264 = CARTESIAN_POINT( '', ( -0.0507721238049069, 0.00173766819762090, 0.0568210495090521 ) );
#265 = CARTESIAN_POINT( '', ( -0.0507943892991196, 0.000870667649165440, 0.0568011464558633 ) );
#266 = CARTESIAN_POINT( '', ( -0.0508000000000000, 0.000434512676430783, 0.0567961266284947 ) );
#267 = CARTESIAN_POINT( '', ( -0.0508000000000000, -0.00347610141144638, 0.0567961266284947 ) );
#268 = CARTESIAN_POINT( '', ( 0.0508000000000000, 0.000000000000000, 0.374650000000000 ) );
#269 = AXIS2_PLACEMENT_3D( '', #276, #277, #278 );
#270 = CARTESIAN_POINT( '', ( 0.000000000000000, -0.355600000000000, 0.000000000000000 ) );
#271 = DIRECTION( '', ( 0.000000000000000, 1.00000000000000, 0.000000000000000 ) );
#272 = DIRECTION( '', ( 0.000000000000000, 0.000000000000000, 1.00000000000000 ) );
#273 = CARTESIAN_POINT( '', ( 0.000000000000000, 0.355600000000000, 0.000000000000000 ) );
#274 = DIRECTION( '', ( 0.000000000000000, 1.00000000000000, 0.000000000000000 ) );
#275 = DIRECTION( '', ( 0.000000000000000, 0.000000000000000, 1.00000000000000 ) );
#276 = CARTESIAN_POINT( '', ( 0.000000000000000, 0.000000000000000, 0.374650000000000 ) );
#277 = DIRECTION( '', ( 0.000000000000000, 0.000000000000000, 1.00000000000000 ) );
#278 = DIRECTION( '', ( 1.00000000000000, 0.000000000000000, 0.000000000000000 ) );
ENDSEC;
END-ISO-10303-21;
